Sweet Home Alabama Tab by Lynyrd Skynyrd

The Essential Lynyrd Skynyrd (1998)

CD 

Guitar Method in the Style of Lynyrd Skynyrd 

Lynard Skynard CDs ] Lynyard Skynyard DVDs and Videos ] Lynyrd Skynyrd T Shirts ] Free Bird Tab by Lynard Skynard ] Gimme Three Steps Tab by Lynyrd Skynyrd ] Simple Man Tab by Lynyard Shynyard ] [ Sweet Home Alabama Tab by Lynyrd Skynyrd ] Sweet Home Alabama Lyrics ]


Sweet Home Alabama Tab by Lynyrd Skynyrd

>From sgabel@heathcliff.engin.umich.edu (Shawn M Gabel)

                   pm -- palm muted
                   po -- pull off
                   ls -- legato slide (first note picked only) 
                    x -- fret hand muting (percusive tone)
                    s -- when under the tabs it indicates sixteenth notes
                    t -- trill, fast hammer-on pull-off combination


Moderate  100bpm    4/4 time

Gtr. 1     measure 1  Section A
                                spoken "turn it up!"      
     D          Csus2              G  
                pm                 pm          po     po     po 
|-------------------------------|-------------------------------|
|--------3---------------3------|-------------------------------|
|----------2---------------0----|--------0--0----------------2/0|
|--0--0------0---------------0--|-------------------0-2/0-------|
|--------------3(0)3------------|--------------0/2--------2-----|
|-------------------------------|-3(0)3-------------------------|

Gtr. 2     measure 1
                                                            ls
|-------------------------------|-------------------------------|
|-------------------------------|-------------------------------|
|-------------------------------|-------------------------------|
|-------------------------------|-------------------------7-----|
|-------------------------------|--------------------------97/9|
|-------------------------------|-------------------------------|
                                                          ss s s

Gtr. 1     measure 3
                                            pm                 pm          po    po      
|-------------------------------|-------------------------------|
|--------3---------------3------|-------------------------------|
|----------2---------------0----|--------0--0--2/0-0-4/0-----5fb|
|--0--0------0---------------0--|-------------------------0-----|
|--------------3(0)3------------|-------------------------------|
|-------------------------------|-3x3---------------------------|


Gtr. 2     measure 3

  |--legato phrasing--------------|~~~~~~vibrato~~~~~~~~~~~~~~~|
|-------------------------------|-------------------------------|
|-------------------------------|-------------------------------|
|-7----------9-7----------------|(7)----------------------------|
|-------------------------------|-------------------------------|
|-------------------------------|-------------------------------|
|-------------------------------|-------------------------------|


Gtr. 1     measure 5
   D                              G
                   pm                          po    po    po
|-------------------------------|-------------------------------|
|--------3--------------3----3--|-------3----3------------------|
|--------2--------------0----0--|-------0----0-------------2/0--|
|--0--0-------x--------------2--|-------0----0-----0-2/0--------|
|----------------3(0)3----------|--------------0/2-------2------|
|-------------------------------|3-x-3----3---------------------|

Gtr. 2     measure 5
 Riff A++++++++++++++++++++++++++++++++++++++++++++++++++++++++++  
   let ring---|     let ring---|  let ring---------------------|
                                               ls         t
|-----0-------------------0-----|----3---------------3----------|
|----------3---------3-------3--|---------3----3/5--------53---|
|-------------------------------|-------------------------------|
|-------------------------------|-------------------------------|
|-------------------------------|-------------------------------|
|-------------------------------|-------------------------------|

Gtr. 1     measure 7
   D                              G
                   pm                          ls    
|-------------------------------|-------------------------------|
|--------3--------------3----3--|-------3-----------------------|
|--------2--------------0----0--|-------0------------0----------|
|--0--0-------x--------------0--|-------0----------0------------|
|----------------3(0)3----------|--------------1/2--------------|
|-------------------------------|3-x-3--------------------------|

Gtr. 2     measure 7
++++++++++++++++++++++++++++++++++++++++++++++++++Riff A ends++|
   let ring---|     let ring---|                        
|-----0-------------------0-----|----3---------3----------3-----|
|----------3---------3-------3--|---------3----------3----------|
|-------------------------------|-------------------------------|
|-------------------------------|-------------------------------|
|-------------------------Gtr. 1     measure 9   Section B (Verses begin here and so does D.S.) 
 1.Big   wheels    keep   on    turnin'	    
 2.Well I heard Mister Young sing about her
 3.In Birmingham they  love the govnor'           boo     hoo
 4.Now muscle shoals has got the swamp us
    D            Csus2             G          po            po
||-------------------------------|------------------------------|
||--------3--3----------3---3----|-------3----------------------|
||*-------2--2----------0---0----|-------0----------0----0------|
||*-0--0--------------------0----|-------0--------0-------------|
||---------------3--3------------|------------0/2-----------0/2-|
||-------------------------------|-3--3-------------------------|

Gtr. 2     measures 9-15 follows Riff A (played 2 times)

Gtr. 1     measure 11
 Carry me home  to  see my  kin
 Well I heard old Neil put 'er down
 hoo Now we all did what we could   do
 An' they been known to pick a song or two
   D             Cadd2              G
|--------------------------------|------------------------------|
|--------3--3----------3---3-----|-------3----------------------|
|--------2--2----------0---0-----|-------0-----------0----------|
|--0--0--------------------2-----|-------0-----------0----------|
|---------------3--3-------------|------------------------------|
|--------------------------------|-3--3-------3--3--------------|

Gtr. 1     measure 13
 Singin' songs about the southland
 Well I hope Neil Young will remember
 Now Watergate  does   not   bother    me
 Lord they get me off  so    much
  D             Csus2               G
|--------------------------------|------------------------------|
|--------3--3----------3---3-----|-------3----------------------|
|--------2--2----------0---0-----|-------0----------0----0------|
|--0--0--------------------0-----|-------0--------0-------------|
|---------------3--3-------------|------------0/2-----------0/2-|
|--------------------------------|-3--3-------------------------|

Gtr. 1     measure 15
 I miss ole 'Bamee once again       I think it's   a sin  yes
 A southern man don't need him
 Does your conscience bother you
 They pick me up when I'm feelin' blue
   D            Cadd2               G
|--------------------------------|------------------------------|
|--------3--3----------3---3-----|-------3---3------------------|
|--------2--2----------0---0-----|-------0---0-------0---0-0----|
|--0--0--------------------2-----|-------0---0-------0---0-0----|
|---------------3--3-------------|------------------------------|
|--------------------------------|-3--3--------3--3-------------|

----------


From: higgins@seas.smu.edu (Gregory Higgins)
Subject: Re: EASY crd/tab: SWEET HOME

Here is a very easy way to play Sweet Home Alabama. It is NOT EXACTLY 
the way they do it, but it is very close and sounds good to me.

AUTHOR'S NOTE:  h - denotes hammer on
                p - denotes pull off


1. INTRO

The following riff is the INTRO (I think they play it twice)


     D         C                  G         
|-------------------------------|-------------------------------|
|--------3---------------3------|-------------------------------|
|----------2---------------0----|--------0-----------------0----|
|--0--0------0---------------0--|-------------------0-0h2----0--|
|--------------3p0-3------------|------------0-0h2--------------|
|-------------------------------|-3p0-3-------------------------|
					     ^from here to the end of the
					      measure play quickly


2. VERSES

During the VERSES you can just repeat the following two measures,
or play the INTRO measures if you like the picking.

         D             C                 G  
|--------2-------------0--------|--------3----------------------|
|--------3-------------1--------|--------0----------------------|
|--------2-------------0--------|--------0----------------0-----|
|--0--0--0-------------2--------|--------0---------0-0h2-----0--|
|----------------3--3--3--------|--------2---0-0h2--------------|
|-------------------------------|--3--3--3----------------------|


3. CHORUS 

During the CHORUS I repeat the following four measures (again, you could
substitute the picking of the intro instead of strumming the chords).

         D             C                 G  
|--------2-------------0--------|--------3----------------------|
|--------3-------------1--------|--------0----------------------|
|--------2-------------0--------|--------0----------------0-----|
|--0--0--0-------------2--------|--------0---------0-0h2-----0--|
|----------------3--3--3--------|--------2---0-0h2--------------|
|-------------------------------|--3--3--3----------------------|

         D             C                 
|--------2-------------0--------|-------------------------------|
|--------3-------------1--------|-------------------------------|
|--------2-------------0--------|------0------0------0----------|
|--0--0--0-------------2--------|--0h2----0h2----0h2----2--0----|
|----------------3--3--3--------|-----------------------------2-|
|-------------------------------|-------------------------------|


Here are the lyrics, just in case.

SWEET HOME ALABAMA

Big wheels keep on turning,
carry me home to see my kin
singing songs about the southland.
I miss ole bamy once again and I think it's a sin.   Yes.

Well, I heard Mister Young sing about her.
Well, I heard ole Neil put her down.
Well, I hope Neil Young will remember
a southern man don't need him around anyhow.

      Sweet home Alabama where the skies are so blue.
      Sweet home Alabama, Lord, I'm coming home to you.

In Birmingham they love the Gov'nor.  Oooh hoo hoo.
Now we all did what we could do.
Now Watergate does not bother me.
Does your conscience bother you, tell the truth.

      Sweet home Alabama where the skies are so blue.
      Sweet home Alabama, Lord, I'm coming home to you.

Now Muscle Shoals has got the Swampers
and they ve been known to pick a song or two.
Lord, they get me off so much,
they pick me up when I'm feeling blue, now how about you.

      Sweet home Alabama where the skies are so blue.
      Sweet home Alabama, Lord, I'm coming home to you.

      Sweet home Alabama where the skies are so blue.
      Sweet home Alabama, Lord, I'm coming home to you.


Added bonus:
Here are the chords to FREEBIRD:
|G  D |Em   |F  C  |D    |

and to GIMME THREE STEPS:
verses:
|D    |A7   |D     |E7   A7|D     |G  E7  |D    |A7    |
and chorus:
|D    |A7   |D     |A7     |

Guitar Method in the Style of Lynyrd Skynyrd 

Lynard Skynard CDs ] Lynyard Skynyard DVDs and Videos ] Lynyrd Skynyrd T Shirts ] Free Bird Tab by Lynard Skynard ] Gimme Three Steps Tab by Lynyrd Skynyrd ] Simple Man Tab by Lynyard Shynyard ] [ Sweet Home Alabama Tab by Lynyrd Skynyrd ] Sweet Home Alabama Lyrics ]

 


 

( Guaranteed Lowest Prices)
Electric Guitar Prices
Acoustic Guitar Prices

For  other instruments:
All The Instruments


For Sunglasses Click Here

For Electric Gutars Click Here


Home ] Acuostic Guitars ] Guitars By Band ] 98 Degrees ] 112 ] 3LW ] ABBA Tablature ] AC DC ] Adam Sandler Songs and DVDs ] Aerosmith Guitar Chords And Tab ] Al Green CD's and Tab ] Alice Cooper Sheet Music and Tab ] Allman Brothers Band ] Animals CD's and Videos ] April Wine CDs and Tab ] Aretha Franklin ] Ashanti ] Ashlee Simpson ] B*Witched ] Babyface ] Backstreet Boys ] Bad Company CDs ] Bad Religion Notes and CD's ] Bananarama CD's and Notes ] The Band CD's and Notes ] Barbara Streisand ] Barry White ] Beach Boys Sheetmusic and CD's ] The Beatles ] Beyonce Knowles ] Billie Joel Sheetmusic and CD's ] Billy Idol ] Black Crows Tableture ] Black Sabbath Guitar Chords And Tab ] Blink 182 CD's and Sheetmusic ] Bloodhound Gang ] Bob Dilan CD's and Notes ] Bob Seger ] Bobby Brown ] Bon Jovi CD's and Sheetmusic ] Boston Notes and Sheetmusic ] Boys II Men ] Brandy ] Brian Wilson Notes and Sheetmusic ] Britney Spears ] Bryan Adams CDs and Lyrics ] Bryds CD's and Artist Info ] Bruce Springsteen ] Buckcherry ] Carlos Santana ] Cars Chords and Tab ] CCR ] Celion Dion Biography and Links ] Cher ] Chicago CD's and Notes ] Christina Aguilera ] Chords And Tablature For The Cars ] Concrete Blonde Sheetmusic and CD's ] Courtney Love ] Cure ] Dave Alvin CDs and Sheetmusic ] Dave Matthews Band Biography And Tablature ] David Bowie Sheetmusic and CDs ] Deep Purple Sheetmusic and Bio ] Def Leppard CDs and Sheetmusic ] Diana Krall ] Diana Ross ] Dio ] Dire Straits Bio and Goodies ] Dolly Parton Chords ] Don Henley CD's and Notes ] The Doors Biography and Tab ] Dwight Yoakam Notes and Tab ] Eagles - Sheet Music and Bio ] Elton John CD's and Sheetmusic ] Elvis Presley CDs and Tablature ] Emerson Lake & Palmer CDs and Notes ] Eminem Sheetmusic and Slim Shady Bio ] En Vogue ] Eric Clapton Chords And Tablature ] Evanescence ] Fiona Apple ] Fleetwood Mac Sheet Music ] Frank Sinatra ] Frank Zappa CD's and Tab ] Gary Moore Chords and Tab ] George Jones ] George Lynch Notes and CDs ] George Micheal Notes and CD's ] Gino Vannelli Biography And Links ] Good Charlotte ] Gordon Lightfoot Guitar Tablature And Chords ] Grand Funk Railroad CD's and Notes ] Grateful Dead ] Green Day Guitar Tab and Chords ] Guess Who Chords and Artist Info ] Guns N Roses Guitar Tab And Chords ] Gwar ] Gwen Stefani ] Heart ] Hilary Duff ] Hole ] Hootie and The Blow Fish ] Insane Clown Posse ] Iron Maiden Videos and Notes ] The Jackson 5 CD's and Tab ] James Brown CD's and Notes ] James Dean ] James Taylor CD's and Tabliture ] Janis Joplin ] Jeff Beck Notes and CDs ] Jefferson Airplane Chords and Notes ] Jethro Tull ] Jimi Hendrix CD's and Tab ] Jimmy Buffet Guitar Tab And Chords ] Joan Osborne ] John Cougar ] John Legend Sheet Music ] John Lennon ] John Mayer Sheetmusic and Biography ] John Petrucci Notes and CDs ] Johnny Cash Chords and Tab ] Johnny Winter CDs and Notes ] Joni Mitchell ] Josh Turner Tabs ] Journey ] Judas Priest Tab and CD's ] Kansas Sheetmusic and Notes ] Kelly Clarkson Sheetmusic And Biography ] Kid Rock ] Kinks Tableture and Notes ] Kiss Biography and Sheetmusic ] Korn ] Led Zeppelin ] Lindsay Lohan ] Linkin Park ] Lionel Richie ] Little Richard ] Lynard Skynard ] Madonna ] Mariah Carey ] Marilyn Manson ] Marilyn Monroe ] Marvin Gaye ] Mary J Blige ] Meatloaf CD's and Notes ] Metallica Tablature Chords And Biography ] Michael Jackson ] Miles Davis Chords and Tab ] Moby ] Motley Crue ] Motorhead sheetmusic and CDs ] Mountain CDs and Tableture ] Mya ] N SYNC ] Neil Diamond ] Neil Young Chords And Guitar Tabs ] Nelly Furtado Biography and Links ] Nine Inch Nails ] Nirvana CD's and Info ] Offspring ] Orgy ] Ozzy Osbourne CD's and Tab ] Pantera Bio and Sheetmusic ] Paul Simon CDs and Notes ] Paula Abdul ] Pearl Jam Biography and Pictures ] Pet Shop Boys ] Peter Gabriel Guitar Chords And Tab ] Phil Collins ] Pink ] Pink Floyd Guitar Chords And Sheet Music ] Poco CD's and Info ] Poison Biography and Sheetmusic ] Porter Wagner ] Prince Sheetmusic and Notes ] Pussy Cat Dolls ] Queen CD's and Tablature ] Quiet Riot ] Quincy Jones ] R Kelly ] Red Hot Chilli Peppers Tab and CDs ] R.E.M. ] Rhapsody CD's and Videos ] Richard Cheese CD's and Notes ] Rick James ] Ricky Martin ] Rod Stewart ] The Rolling Stones CD's and Tablature ] Rush Chords And Sheet Music ] Sammy Davis Jr ] Santana CD's and Chords ] Scorpions Guitar Chords And Tablature ] Sex Pistols CD's and Info ] Shakira ] Simple Plan ] Slayer ] Slipknot Tablature and Biography ] Smokey Robinson ] Soul Asylum Notes and CD's ] Spice Girls ] Stevie Ray Vaughan Bio and Sheetmusic ] Stevy Wonder Notes and CDs ] Stone Temple Pilots Notes and Chords ] Stray Cats Sheetmusic and CD's ] Streets Notes and CD's ] Styx Chords And Tab ] Supertramp Notes and Sheetmusic ] System Of A Down ] Ted Nugent CD's and DVDs ] Third Eye Blind bio and Sheetmusic ] Three Days Grace CD's and Chords ] TLC ] Toby Keith Chords ] Tom Petty Chords ] Toni Braxton ] Tony Bennett ] Tool ] Tupac Shakur Bio and Sheetmusic ] Tragically Hip Notes and CD's ] Twisted Sister ] U2 Tablature ] Van Halen Tablature And Chords ] Van Morrison CD's and Info ] Vanessa Williams ] Velvet Revolver Notes and CDs ] Village People ] Weezer CD's and Chords ] White Stripes ] White Zombie ] Whitney Houston ] The Who Sheetmusic and CD's ] Wilco Chords and Tabliture ] Yes Chords and CD's ] Zombies CD's and Sheetmusic ] ZZ Top Chords and Tab ] More Rock Artists ] Country Music CDs ] Country Sheet Music ] Concerts on DVD ] Guitar Lessons On dvd ] Chords And Tab Site Map ] Tablature Explanations ] Instruments For Sale ]


Guitar - Guiter - Guitir - Guitat - Guitare - Gutar - Gitar - Tabliture - Tablature - Tableture - Tabiture - Song Notes - Song Chords - Lyrics - Song Lyrics - Notes - Songs - Biography - Tab - Bio - Pics - Pic's - Pics' - Pictures - Picture's - Artist Info - Information - Free Guitar Tab - Jazz Music - Jazz - Jazz Tab - Jazz Chords - Jazz Notes - Rock Music - Rock - Rock Tab - Rock Chords - Rock Notes - Country Music - Country - Country Tab - Country Chords - Country Notes - Classical Music - Classical - Classical Tab - Classical Chords - Classical Notes - Heavy Metal Music - Heavy Metal - Heavy Metal Tab - Heavy Metal Chords - Heavy Notes - Rock N Roll Music - Rock N Roll - Rock N Roll Tab - Rock N Roll Chords - Rock N Roll Notes

For Rap Music And Hip-Hop Click Here
For Piano Manufactures and Accessories
For Top Ranked Audio Software Click Here


hosted by www.weboshawa.com

chords and tab @ www.chordsandtab.com