Free Bird Tab by Lynard Skynard

The Essential Lynyrd Skynyrd (1998)

CD 

Guitar Method in the Style of Lynyrd Skynyrd 

Lynard Skynard CDs ] Lynyard Skynyard DVDs and Videos ] Lynyrd Skynyrd T Shirts ] [ Free Bird Tab by Lynard Skynard ] Gimme Three Steps Tab by Lynyrd Skynyrd ] Simple Man Tab by Lynyard Shynyard ] Sweet Home Alabama Tab by Lynyrd Skynyrd ] Sweet Home Alabama Lyrics ]

 

Free Bird Tab by Lynard Skynard

From: Jaakko Pimperi 


Lynyrd Skynyrd - "Free Bird"

INTRO: (Slowly) 
-----  GTR.2 acoustical
     G     D/F#  Em         F      C     Dsus2 
e-|--3^----------0^--0^-----1^-----0^-----3^--------|
B-|--0^----------0^--0^-----1^-----1^-----3^--------|
G-|--0^----------0^--0^-----2^-----0^-----2^--------| X2
D-|--0^----------2^--2^-----3^-----2^-----0^--------| 
A-|--2^----------2^--2^-----3^-----3^---------------|
E-|--3^-----2----0^--0^-----1^----------------------|

GTR.1 W/slide
         G        D/F#      Em
e-|------------------------------------------------------------|
B-|---3-/-8--7/8--7------8--8-7-5-3/5/7--3/5--5-/-3--------|
G-|------------------------------------------------------4--4/-|
D-|------------------------------------------------------------|
A-|------------------------------------------------------------|
E-|------------------------------------------------------------|

    F          C                      D
e-|------------------------------------------------------------|
B-|------6-6-65-----------------------------------------------|
G-|-/5-----------5---------4--5----7---5-/7--(7)-/19------19-|
D-|----------------5---/5------------------------------19----|
A-|------------------------------------------------------------|
E-|------------------------------------------------------------|

        G         D/F#           Em           F
e-|------------------------------------------------------------|
B-|-----3/8-------7-/87---(7)/8-87-5----5--3--------------|
G-|-----------------------------------------------4--4--/-5----|
D-|------------------------------------------------------------|
A-|------------------------------------------------------------|
E-|------------------------------------------------------------|

                           C            D
e-|------------------------------------------------------------|
B-|-----65----------------------------------------------------|
G-|--5------5----------4-5---7----5/7--75-/7--5/7--9/--------|
D-|------------5---5------------------------------------------|
A-|------------------------------------------------------------|
E-|------------------------------------------------------------|

Verse1,2:
    G        D/F#               Em
 1.  If I_  leave__ here ...
%2.Bye, bye ba - by it's been ...
e-|------------------------------------------------------------|
B-|------------------------------3--/--5-------5----3---------|
G-|-/12------------------------------------------------4--4----|
D-|------------------------------------------------------------|

   F           C                 D
   would you_ still re ...
   though this feel - ing I  ...
e-|------------------------------------------------------------|
B-|------------------------------------------------------------|
G-|/5------------------4--5-----7--(7)5-/7--(7)-/-1917---19--|
D-|----------------/5-----------------------------------19-----|
A-|------------------------------------------------------------|

  G                 D/F#               Em
   For   I   must    be__  ...
   But please don't  take ...
e-|------------------------------------------------------------|
B-|7/8-------------------------------3-/-5----5-3-------------|
G-|-------------------------------------------------4--4-------|
D-|------------------------------------------------------------|

    F                            C                         D
        'cause there's too man -y plac  ...
         'cause  the  Lord   ...
e-|------------------------------------------------------------|
B-|------------------------------------------------------------|
G-|5----4-/5---------(5)--------------------------5----7----|
D-|----------------------------------2-/5----------------------|
A-|------------------------------------------------------------|
   
   D
e-|------------------------/-----------------------|
A-|-----------------------/------------------------|
G-|--(7)5/75/6------(7)/---1917/1917/19--------|
D-|------------------------------------------------|

   G             D/F#                Em                 F 
     But if I   stayed__ here ...
e-|------------------------------------------------------------|
B-|7/8-------------------------------3-/--5-----5-3-----------|
G-|--------------------------------------------------4--4-/-5--|
D-|------------------------------------------------------------|
A-|------------------------------------------------------------|
E-|------------------------------------------------------------|

            C                   D                           G
    just could - n't  be  ...
e-|------------------------------------------------------------|
B-|-------------------4---5--7-(7)-5-/7---75-/7--7---9-/-12--|
G-|----------2-/-5---------------------------------------------|
D-|------------------------------------------------------------|
A-|------------------------------------------------------------|
E-|------------------------------------------------------------|

             D/F#          Em                          F
    I'm as  free___ as  a bird    ...
e-|------------------------------------------------------------|
B-|------------------------------------------------------------|
G-|-----------------------121197-/9---9-7-----------------|
D-|--------------------------------------------9--9/-/10-------|
A-|------------------------------------------------------------|
E-|------------------------------------------------------------|

          C                    D
    this bird  you ...
e-|-------------------------------------------------------------|
B-|-------------------------------------------------------------|
G-|-------------------------------------------------------------|
D-|------------------10-----1210----12----1210/1210/1210/12|
A-|-----------3/10-----------------12---------------------------|
E-|-------------------------------------------------------------|

     F            C                       D
      And  this  bird you can...
e-|-------------------------------------------------------------|
B-|-------------------------------------------------------------|
G-|7/10 109---------------5-/---------/1917-----1917----19/17|
D-|----------10--------/-----------------------19-------19------|
A-|-------------10-3-/-----------------------------------------|
E-|-------------------------------------------------------------|

                       F             C                   D
                         and  this  bird you ...
e-|------------------------------------------------------------|
B-|-------------22---------------------------------------------|
G-|---1917----/---19-7/10-109--------------4-5------5/7-----|
D-|19-------19/------------------10----------------------------|
A-|---------------------------------10-(10)-------------------|
E-|------------------------------------------------------------|

-This part comes only in the first time. Ingore this in the second time-I
                                                                        I
   F              C                    D                                I
    Lord      knows,   I ...G     I
e-|------------------------------------------------------------------|  I
B-|------------------------------------------------------------------|  I
G-|/10-109---------------------------------------------------7-/-12-|  I
D-|---------10------3-/9---10-------1210-/12--1210/1210/12--------|  I
A-|------------103--------------------------------------------------|  I
E-|------------------------------------------------------------------|  I
                                                                        I
           D/F#       Em                               F                I
e-|------------------------------------------------------------------|  I
B-|------------------------------------------------------------------|  I
G-|----11/12--11------121197/9/11--7/9-97---------10-10-10-9---|  I
D-|-------------------------------------------9-9--10----------------|  I
A-|------------------------------------------------------------------|  I
E-|------------------------------------------------------------------|  I
                                                                        I
         C               D                                              I
e-|------------------------------------------------------------------|  I
B-|---------------------------------------17/22----------------------|  I
G-|--------------4-5---75/7-(7)-/1917--------19--7/12--11/12-11---|  I
D-|-10---------5------------------------19---------------------------|  I
A-|---10-(10)-------------------------------------------------------|  I
E-|------------------------------------------------------------------|  I
Then goto % (second verse)                                              I
------------------------------------------------------------------------I

    F         C            D
     Lord    knows I ...
e-|-----------------------|-----------------------------------------|
B-|-----------------------|-----------------------------------------|
G-|/10-109------------10-|/1917-1917-1917--1917-1917-1917----|
D-|--------10--------10---|-----19----19----19-----19----19----19---|
A-|----------105-/10-----|-----------------------------------------|
E-|-----------------------|-------Repeat this section two times-----|

   F                  C           D
    Lord,  help me,  I ...
e-|------------------------------------------------------------|
B-|-3/6--65---------------------------------------------------|
G-|----------5-------4--5-------75/75/75/75/75/75/75----|
D-|------------5-/5-------------------------------------------|
A-|------------------------------------------------------------|
E-|------------------------------------------------------------|

    G                Bb              C
             Lord,____________I ...
e-|------------------------------------------------------------|
B-|------------------------------------------------------------|
G-|-12\\\\\-----------------------------------------------|
D-|-5-5-5-5-5-5-5-5-8-8-8-8-8-8-8-8--10-10-10-10-10-10-10-10-10|
A-|-5-5-5-5-5-5-5-5-8-8-8-8-8-8-8-8--10-10-10-10-10-10-10-10-10|
E-|-3-3-3-3-3-3-3-3-6-6-6-6-6-6-6-6--8--8--8--8--8--8--8--8--8-|

                          G              Bb              C
               Won't  you  fly__________________________ free__
e-|------------------------------------------------------------|
B-|------------------------------------------------------------|
G-|------------------------------------------------------------|
D-|-10-10-10-10-10-10-10--5-5-5-5-5-5-5-5-8-8-8-8-8-8-8-8-10-10|
A-|-10-10-10-10-10-10-10--5-5-5-5-5-5-5-5-8-8-8-8-8-8-8-8-10-10|
E-|-8--8--8--8--8--8--8---3-3-3-3-3-3-3-3-6-6-6-6-6-6-6-6-8--8-|


   ________________________           bird?      yeah________
e-|-------------------------------------------------------15---|
B-|----------------------------------------------------15----15|
G-|------------------------------------------------------------|
D-|-10-10-10-10-10-10-10-10-10-10-10-10-10-10-10-10-10-10-10-10|
A-|-10-10-10-10-10-10-10-10-10-10-10-10-10-10-10-10-10-10-10-10|
E-|-8--8--8--8--8--8--8--8--8--8--8--8--8--8--8--8--8--8--8--8-|

[solo stripped by archivist]

From: "frederic briere" 

Lynyrd Skynyrd Free bird extended version SOLO
Words and music by: Allen Collins and Ronnie Van Zant

h - hammer on
p - pull off
b - bend string up
r - release bend
/ - slide up
 - slide down
~ - vibrato
t - right hand tap
x - play 'note' with heavy damping




Here is the solo... It's mostly correct, but in repetitive sequences I 
didn't count, so just try to make it sound like the song. It seems harder 
than it is to play so good luck!


Repeat twice (4:55)

E---------------------------------------------18-----18---- 
B---18b-18b-18b-18-15-18-18r-15-18b----18-18b----18b------- 
D---------------------------------------------------------- 
G---------------------------------------------------------- 
A---------------------------------------------------------- 
E----------------------------------------------------------

E-------18-----18-----18-----18-----18--------------------- 
B---18b----18b----18b----18b----18b----18rp15-------------- 
D---------------------------------------------------------- 
G---------------------------------------------------------- 
A---------------------------------------------------------- 
E----------------------------------------------------------



then

E-----18-----18-----18-----18-----18-----18-----18-----18-- 
B-18b----18b----18b----18b----18b----18b----18b----18b----- 
D---------------------------------------------------------- 
G---------------------------------------------------------- 
A---------------------------------------------------------- 
E----------------------------------------------------------

E-------18-----18-----18-----18-----18-----18-----18----18- 
B---18b----18b----18b----18b----18b----18b----18b----18b--- 
D---------------------------------------------------------- 
G---------------------------------------------------------- 
A---------------------------------------------------------- 
E----------------------------------------------------------


(5:15)

E---------------------------------------------------------- 
B--15-18-15-18-15-18-15-18-15-18-15-18-15-18-15-18-15-18--- 
D---------------------------------------------------------- 
G---------------------------------------------------------- 
A---------------------------------------------------------- 
E----------------------------------------------------------

E---------------------------------------------------------- 
B--15-18-15-18-15-18-15-18-15-18-15-18-15-18-15-18-15-18--- 
D---------------------------------------------------------- 
G---------------------------------------------------------- 
A---------------------------------------------------------- 
E----------------------------------------------------------

E---------------------------------------------------------- 
B--15-18-15-18-15-18-15-18-15-18-15-18-15-18-15-18-15-18--- 
D---------------------------------------------------------- 
G---------------------------------------------------------- 
A---------------------------------------------------------- 
E----------------------------------------------------------



(5:22)

E---------------------------------------------------------- 
B---18b-18b---------15h18p15-----15h18p15-----15h18p15----- 
D---------------17------------17-----------17-------------- 
G---------------------------------------------------------- 
A---------------------------------------------------------- 
E----------------------------------------------------------

E---------------------------------------------------------- 
B------15h18p15-----15h18p15-----15h18p15-----15h18p15----- 
D---17-----------17-----------17-----------17-------------- 
G---------------------------------------------------------- 
A---------------------------------------------------------- 
E----------------------------------------------------------

E---------------------------------------------------------- 
B------15h18p15-----15h18p15-----15h18p15-----15h18p15----- 
D---17-----------17-----------17-----------17-------------- 
G---------------------------------------------------------- 
A---------------------------------------------------------- 
E----------------------------------------------------------

E----------------------------------------------------------  
B------15h18p15-----15h18p15-----15h18p15-----15h18p15----- 
D---17-----------17-----------17-----------17-------------- 
G---------------------------------------------------------- 
A---------------------------------------------------------- 
E----------------------------------------------------------


E---------------------------------------------------------- 
B---15h18p15------15--------------------------------------- 
D-------------17-----15------------15-----------15--------- 
G------------------------17p15h17-----17p15h17------------- 
A---------------------------------------------------------- 
E----------------------------------------------------------

E-------------------------------------------------18------- 
B-------------------------------------------------18------- 
D---------------------17p15----15-17p15----15-17b---------- 
G---17p15----15-17p15-------17----------17----------------- 
A---------17----------------------------------------------- 
E----------------------------------------------------------

E-------18-----18-----18-----18-----18-----18-----18------- 
B-------18-----18-----18-----18-----18-----18-----18------- 
D---17b----17b----17b----17b----17b----17b----17b---------- 
G---------------------------------------------------------- 
A---------------------------------------------------------- 
E----------------------------------------------------------

E-------18-----18-----18-----18-----18-----18-----18------- 
B-------18-----18-----18-----18-----18-----18-----18------- 
D---17b----17b----17b----17b----17b----17b----17b---------- 
G---------------------------------------------------------- 
A---------------------------------------------------------- 
E----------------------------------------------------------



(5:40)

E---------------------------------------------------------- 
B---------------------------------------------------------- 
D---15--------------15--------------15--------------------- 
G------17p15-------------17p15-----------17p15------------- 
A------------17----------------17--------------17---------- 
E----------------------------------------------------------

E---------------------------------------------------------- 
B---------------------------------------------------------- 
D---15---------------15---------------15------------------- 
G--------17p15------------17p15------------17p15----15h17~- 
A--------------17---------------17---------------17-------- 
E----------------------------------------------------------

E---------------------------------------------------------- 
B---------------------------------------------------------- 
D-------------------------------------------------15------- 
G---17p15----15-17p15----15-17p15----15-17p15--------17~--- 
A---------17----------17----------17----------17----------- 
E----------------------------------------------------------

E---------------------------------------------------------- 
B---------------------------------------------------------- 
D-------------------------------------------------15------- 
G---17p15----15-17p15----15-17p15----15-17p15--------17~--- 
A---------17----------17----------17----------17----------- 
E----------------------------------------------------------

E---------------------------------------------------------- 
B---------------------------------------------------------- 
D-------------------------------------------------15------- 
G---17p15----15-17p15----15-17p15----15-17p15--------17~--- 
A---------17----------17----------17----------17----------- 
E----------------------------------------------------------


E---------------------------------------------------------- 
B---------------------------------------------------------- 
D------------15----------------15---------------15--------- 
G---17p15-------17~---17p15-------17~--17p15-------17~----- 
A---------17----------------17---------------17------------ 
E----------------------------------------------------------

E---------------------------------------------------------- 
B---------------------------------------------------------- 
D------------15------------17b-17p15-------17b-17p15------- 
G---17p15---------17~----------------17p15-----------17p15- 
A---------17----------------------------------------------- 
E----------------------------------------------------------

E---------------------------------------------------------- 
B---------------------------------------------------------- 
D---17b-17p15-------17b-17p15-------17b-17p15-------------- 
G-------------17p15-----------17p15----------17p15--------- 
A---------------------------------------------------------- 
E----------------------------------------------------------

         Hold bend
E---------------------------------------------------------- 
B---------------------------------------------------------- 
D----17b-17b-17b-17b-17b-17b------------------------------- 
G---------------------------------------------------------- 
A---------------------------------------------------------- 
E----------------------------------------------------------



(6:00)

E-----------------------------------6----6----6----6------- 
B-----6b-6b-6b-6-3-6-6r-3-6b---6-6b---6b---6b---6b--------- 
D---------------------------------------------------------- 
G---------------------------------------------------------- 
A---------------------------------------------------------- 
E----------------------------------------------------------



E--------------------------------------6------------------- 
B----6b-6b-6b-6-3-6-6r-3-6b----3-6b-6b---6b---------------- 
D---------------------------------------------------------- 
G---------------------------------------------------------- 
A---------------------------------------------------------- 
E----------------------------------------------------------

Repeat twice

E---------------------------(6)------(6)------(6)---------- 
B---8b-8b-8b-----6-8~--6-8~-----6-8~-----6-8~-----6-8~----- 
D---------------------------------------------------------- 
G---------------------------------------------------------- 
A---------------------------------------------------------- 
E----------------------------------------------------------

E---(6)------(6)------------------------------------------- 
B-------6-8~-----6-8~-------------------------------------- 
D---------------------------------------------------------- 
G---------------------------------------------------------- 
A---------------------------------------------------------- 
E----------------------------------------------------------

Seond time another guitar adds this


E----8br-p6---6-8br-p6------------------------------------- 
B-----------8----------8-6-8~------------------------------ 
D---------------------------------------------------------- 
G---------------------------------------------------------- 
A---------------------------------------------------------- 
E----------------------------------------------------------


E---------------------------------------------------------- 
B----6-8~--6-8~----8p6---8~--6-8~----8p6---8~--6-8~----6--- 
D----------------7-----7-----------7-----7-----------7----- 
G---------------------------------------------------------- 
A---------------------------------------------------------- 
E----------------------------------------------------------

E---------------------------------------------------------- 
B---8b-8b-8b----------------------------------------------- 
D---------------------------------------------------------- 
G---------------------------------------------------------- 
A---------------------------------------------------------- 
E----------------------------------------------------------



(6:31)

Then plenty of guitars playing different things, you can play that...


E----6-------6-------6-------6-------6-------6------------- 
B------8p6-----8p6-----8p6-----8p6-----8p6-----8p6--------- 
D----------7-------7-------7-------7-------7-------7------- 
G---------------------------------------------------------- 
A---------------------------------------------------------- 
E----------------------------------------------------------

E----6-------6-------6-------6-------6-------6------------- 
B------8p6-----8p6-----8p6-----8p6-----8p6-----8p6--------- 
D----------7-------7-------7-------7-------7-------7------- 
G---------------------------------------------------------- 
A---------------------------------------------------------- 
E----------------------------------------------------------

E----6-------6-------6-------6-------6-------6------------- 
B------8p6-----8p6-----8p6-----8p6-----8p6-----8p6--------- 
D----------7-------7-------7-------7-------7-------7------- 
G---------------------------------------------------------- 
A---------------------------------------------------------- 
E----------------------------------------------------------




E---15----------15----------15----------15----------------- 
B------18p15-------18p15-------18p15-------18p15----------- 
D------------17----------17----------17----------17-------- 
G---------------------------------------------------------- 
A---------------------------------------------------------- 
E----------------------------------------------------------

E---15----------15----------15----------15----------------- 
B------18p15-------18p15-------18p15-------18p15----------- 
D------------17----------17----------17----------17-------- 
G---------------------------------------------------------- 
A---------------------------------------------------------- 
E----------------------------------------------------------

E---15----------15----------15----------15----------------- 
B------18p15-------18p15-------18p15-------18p15-----------  
D------------17----------17----------17----------17-------- 
G---------------------------------------------------------- 
A---------------------------------------------------------- 
E----------------------------------------------------------

E---15----------15----------15----------15----------------- 
B------18p15-------18p15-------18p15-------18p15----------- 
D------------17----------17----------17----------17-------- 
G---------------------------------------------------------- 
A---------------------------------------------------------- 
E----------------------------------------------------------

E---15----------15----------15----------15----------------- 
B------18p15-------18p15-------18p15-------18p15----------- 
D------------17----------17----------17----------17-------- 
G---------------------------------------------------------- 
A---------------------------------------------------------- 
E----------------------------------------------------------

E---15----------15----------15----------15----------------- 
B------18p15-------18p15-------18p15-------18p15----------- 
D------------17----------17----------17----------17-------- 
G---------------------------------------------------------- 
A---------------------------------------------------------- 
E----------------------------------------------------------

E---15----------15----------15----------15----------------- 
B------18p15-------18p15-------18p15-------18p15----------- 
D------------17----------17----------17----------17-------- 
G---------------------------------------------------------- 
A---------------------------------------------------------- 
E----------------------------------------------------------

E---15----------15----------15----------15----------------- 
B------18p15-------18p15-------18p15-------18p15----------- 
D------------17----------17----------17----------17-------- 
G---------------------------------------------------------- 
A---------------------------------------------------------- 
E----------------------------------------------------------

E---15----------15----------15----------15----------------- 
B------18p15-------18p15-------18p15-------18p15----------- 
D------------17----------17----------17----------17-------- 
G---------------------------------------------------------- 
A---------------------------------------------------------- 
E----------------------------------------------------------



E---18p15----18p15----18p15----18p15----18p15----18p15----- 
B---------15-------15-------15-------15-------15-------15-- 
D---------------------------------------------------------- 
G---------------------------------------------------------- 
A---------------------------------------------------------- 
E----------------------------------------------------------

E---18p15----18p15----18p15----18p15----18p15----18p15----- 
B---------15-------15-------15-------15-------15-------15-- 
D---------------------------------------------------------- 
G---------------------------------------------------------- 
A---------------------------------------------------------- 
E----------------------------------------------------------


E---13p10----13p10----13p10----13p10----13p10----13p10----- 
B---------10-------10-------10-------10-------10-------10-- 
D---------------------------------------------------------- 
G---------------------------------------------------------- 
A---------------------------------------------------------- 
E----------------------------------------------------------



(6:56)

E----15--15--15--15--15--15--15--15-15-15-15-15-15--------- 
B----18b-18b-18b-18b-18b-18b-18r-18-18-18-15-15-15--------- 
D---------------------------------------------------------- 
G---------------------------------------------------------- 
A---------------------------------------------------------- 
E----------------------------------------------------------

E---------------------------------------------------------- 
B---15--15--15--15--15--15-15-15--------------------------- 
D---17b-17b-17b-17b-17r-17-17-17-----15-------------------- 
G---------------------------------17----17~---------------- 
A---------------------------------------------------------- 
E----------------------------------------------------------

Then repeat riffs you have already done... (improvise)

Then one guitar starts doing

E---------------------------------------------------------- 
B---15--15--15--15--15--15--15--15--15--------------------- 
D---15b-15b-15b-15b-15b-15b-15b-15b-15b-------------------- 
G---------------------------------------------------------- 
A---------------------------------------------------------- 
E----------------------------------------------------------



Then (7:47)

E---------------------------------------------------------- 
B---18-----18-----18-----18-----18-----18-----18-----18---- 
D------17b----17b----17b----17b----17b----17b----17b------- 
G---------------------------------------------------------- 
A---------------------------------------------------------- 
E----------------------------------------------------------

E---------------------------------------------------------- 
B---18-----18-----18-----18-----18-----18-----18-----18---- 
D------17b----17b----17b----17b----17b----17b----17b------- 
G---------------------------------------------------------- 
A---------------------------------------------------------- 
E----------------------------------------------------------

E---18-----18-----18-----18-----18-----18-----18-----18---- 
B------18b----18b----18b----18b----18b----18b----18b------- 
D---------------------------------------------------------- 
G---------------------------------------------------------- 
A---------------------------------------------------------- 
E----------------------------------------------------------

E-------18-----18-----18-----18-----18-----18-----18------- 
B---18b----18b----18b----18b----18b----18b----18b---------- 
D---------------------------------------------------------- 
G---------------------------------------------------------- 
A---------------------------------------------------------- 
E----------------------------------------------------------

E-------18-----18-----18-----18-----18-----18-----18------- 
B---18b----18b----18b----18b----18b----18b----18b---------- 
D---------------------------------------------------------- 
G---------------------------------------------------------- 
A---------------------------------------------------------- 
E----------------------------------------------------------

E--22-----22-----22-----22-----22-----22-----22-----22----- 
B-----22b----22b----22b----22b----22b----22b----22b----22b-  
D---------------------------------------------------------- 
G---------------------------------------------------------- 
A---------------------------------------------------------- 
E----------------------------------------------------------

E--22-----22-----22-----22-----22-----22-----22-----22----- 
B-----22b----22b----22b----22b----22b----22b----22b----22b- 
D---------------------------------------------------------- 
G---------------------------------------------------------- 
A---------------------------------------------------------- 
E----------------------------------------------------------

E--22-----22-----22-----22-----22-----22-----22-----22----- 
B-----22b----22b----22b----22b----22b----22b----22b----22b- 
D---------------------------------------------------------- 
G---------------------------------------------------------- 
A---------------------------------------------------------- 
E----------------------------------------------------------



(8:12)The coolest riff in the solo.

E---------------------------------------------------------- 
B---15----------------------------------------------------- 
D------15b----15----17br17p15-17----15-17-15----17----15--- 
G----------17----17--------------17----------17----17------ 
A---------------------------------------------------------- 
E----------------------------------------------------------

E---------------------------------------------------------- 
B---------------------------------------------------------- 
D------15-17-15----17----15b------------------------------- 
G---17----------17----17-----17~--------------------------- 
A---------------------------------------------------------- 
E----------------------------------------------------------

E---15----------15----------15----------15----------------- 
B------18p15-------18p15-------18p15-------18p15----------- 
D------------17----------17----------17----------17-------- 
G---------------------------------------------------------- 
A---------------------------------------------------------- 
E----------------------------------------------------------

E---15----------15----------15----------15----------------- 
B------18p15-------18p15-------18p15-------18p15----------- 
D------------17----------17----------17----------17-------- 
G---------------------------------------------------------- 
A---------------------------------------------------------- 
E----------------------------------------------------------

E---15----------15----------15----------15----------------- 
B------18p15-------18p15-------18p15-------18p15----------- 
D------------17----------17----------17----------17-------- 
G---------------------------------------------------------- 
A---------------------------------------------------------- 
E----------------------------------------------------------

E---15----------15----------15----------15----------------- 
B------18p15-------18p15-------18p15-------18p15----------- 
D------------17----------17----------17----------17-------- 
G---------------------------------------------------------- 
A---------------------------------------------------------- 
E----------------------------------------------------------

E---15----------15----------15----------15----------------- 
B------18p15-------18p15-------18p15-------18p15----------- 
D------------17----------17----------17----------17-------- 
G---------------------------------------------------------- 
A---------------------------------------------------------- 
E----------------------------------------------------------

E---15----------15----------15----------15----------------- 
B------18p15-------18p15-------18p15-------18p15----------- 
D------------17----------17----------17----------17-------- 
G---------------------------------------------------------- 
A---------------------------------------------------------- 
E----------------------------------------------------------

Then repeat riffs you have already done (improvise)


(8:57)


E---------------------------------------------------------- 
B---18b-18-15---------------------------------------------- 
D-------------17br-15-17~--15-17~-15-17~-----17----15------ 
G-----------------------------------------17----17----17--- 
A---------------------------------------------------------- 
E----------------------------------------------------------

E---------------------------------------------------------- 
B---------------------------------------------------------- 
D---17----15----17----15b---------------------------------- 
G------17----17----17-----17~------------------------------ 
A---------------------------------------------------------- 
E----------------------------------------------------------


Ending
(9:28)


E---------------------------------------------------------- 
B---------------------------------------------------------- 
D-----------5-7-8p7-5-7-8-10-10b---12-10-8-7h8h10p8p7h8---- 
G---5~--5-8------------------------------------------------ 
A---------------------------------------------------------- 
E----------------------------------------------------------

E---------------------------------------------------------- 
B---------------------------------------------------------- 
D---5h7h8p7p5p3h5p5p3p2h3p2-0------------------------------ 
G------------------------------3-2~-------5-7p5---5-7-8-10- 
A-------------------------------------7-8-------8---------- 
E----------------------------------------------------------

E---------------------------------------------------------- 
B---------------------------------------------------------- 
D---------------------------------------------------------- 
G---7-8p7----7--------------------------------------------- 
A---------10---10b~~--------------------------------------- 
E----------------------------------------------------------

Guitar Method in the Style of Lynyrd Skynyrd 

Lynard Skynard CDs ] Lynyard Skynyard DVDs and Videos ] Lynyrd Skynyrd T Shirts ] [ Free Bird Tab by Lynard Skynard ] Gimme Three Steps Tab by Lynyrd Skynyrd ] Simple Man Tab by Lynyard Shynyard ] Sweet Home Alabama Tab by Lynyrd Skynyrd ] Sweet Home Alabama Lyrics ]



 

( Guaranteed Lowest Prices)
Electric Guitar Prices
Acoustic Guitar Prices

For  other instruments:
All The Instruments


For Sunglasses Click Here

For Electric Gutars Click Here


Home ] Acuostic Guitars ] Guitars By Band ] 98 Degrees ] 112 ] 3LW ] ABBA Tablature ] AC DC ] Adam Sandler Songs and DVDs ] Aerosmith Guitar Chords And Tab ] Al Green CD's and Tab ] Alice Cooper Sheet Music and Tab ] Allman Brothers Band ] Animals CD's and Videos ] April Wine CDs and Tab ] Aretha Franklin ] Ashanti ] Ashlee Simpson ] B*Witched ] Babyface ] Backstreet Boys ] Bad Company CDs ] Bad Religion Notes and CD's ] Bananarama CD's and Notes ] The Band CD's and Notes ] Barbara Streisand ] Barry White ] Beach Boys Sheetmusic and CD's ] The Beatles ] Beyonce Knowles ] Billie Joel Sheetmusic and CD's ] Billy Idol ] Black Crows Tableture ] Black Sabbath Guitar Chords And Tab ] Blink 182 CD's and Sheetmusic ] Bloodhound Gang ] Bob Dilan CD's and Notes ] Bob Seger ] Bobby Brown ] Bon Jovi CD's and Sheetmusic ] Boston Notes and Sheetmusic ] Boys II Men ] Brandy ] Brian Wilson Notes and Sheetmusic ] Britney Spears ] Bryan Adams CDs and Lyrics ] Bryds CD's and Artist Info ] Bruce Springsteen ] Buckcherry ] Carlos Santana ] Cars Chords and Tab ] CCR ] Celion Dion Biography and Links ] Cher ] Chicago CD's and Notes ] Christina Aguilera ] Chords And Tablature For The Cars ] Concrete Blonde Sheetmusic and CD's ] Courtney Love ] Cure ] Dave Alvin CDs and Sheetmusic ] Dave Matthews Band Biography And Tablature ] David Bowie Sheetmusic and CDs ] Deep Purple Sheetmusic and Bio ] Def Leppard CDs and Sheetmusic ] Diana Krall ] Diana Ross ] Dio ] Dire Straits Bio and Goodies ] Dolly Parton Chords ] Don Henley CD's and Notes ] The Doors Biography and Tab ] Dwight Yoakam Notes and Tab ] Eagles - Sheet Music and Bio ] Elton John CD's and Sheetmusic ] Elvis Presley CDs and Tablature ] Emerson Lake & Palmer CDs and Notes ] Eminem Sheetmusic and Slim Shady Bio ] En Vogue ] Eric Clapton Chords And Tablature ] Evanescence ] Fiona Apple ] Fleetwood Mac Sheet Music ] Frank Sinatra ] Frank Zappa CD's and Tab ] Gary Moore Chords and Tab ] George Jones ] George Lynch Notes and CDs ] George Micheal Notes and CD's ] Gino Vannelli Biography And Links ] Good Charlotte ] Gordon Lightfoot Guitar Tablature And Chords ] Grand Funk Railroad CD's and Notes ] Grateful Dead ] Green Day Guitar Tab and Chords ] Guess Who Chords and Artist Info ] Guns N Roses Guitar Tab And Chords ] Gwar ] Gwen Stefani ] Heart ] Hilary Duff ] Hole ] Hootie and The Blow Fish ] Insane Clown Posse ] Iron Maiden Videos and Notes ] The Jackson 5 CD's and Tab ] James Brown CD's and Notes ] James Dean ] James Taylor CD's and Tabliture ] Janis Joplin ] Jeff Beck Notes and CDs ] Jefferson Airplane Chords and Notes ] Jethro Tull ] Jimi Hendrix CD's and Tab ] Jimmy Buffet Guitar Tab And Chords ] Joan Osborne ] John Cougar ] John Legend Sheet Music ] John Lennon ] John Mayer Sheetmusic and Biography ] John Petrucci Notes and CDs ] Johnny Cash Chords and Tab ] Johnny Winter CDs and Notes ] Joni Mitchell ] Josh Turner Tabs ] Journey ] Judas Priest Tab and CD's ] Kansas Sheetmusic and Notes ] Kelly Clarkson Sheetmusic And Biography ] Kid Rock ] Kinks Tableture and Notes ] Kiss Biography and Sheetmusic ] Korn ] Led Zeppelin ] Lindsay Lohan ] Linkin Park ] Lionel Richie ] Little Richard ] Lynard Skynard ] Madonna ] Mariah Carey ] Marilyn Manson ] Marilyn Monroe ] Marvin Gaye ] Mary J Blige ] Meatloaf CD's and Notes ] Metallica Tablature Chords And Biography ] Michael Jackson ] Miles Davis Chords and Tab ] Moby ] Motley Crue ] Motorhead sheetmusic and CDs ] Mountain CDs and Tableture ] Mya ] N SYNC ] Neil Diamond ] Neil Young Chords And Guitar Tabs ] Nelly Furtado Biography and Links ] Nine Inch Nails ] Nirvana CD's and Info ] Offspring ] Orgy ] Ozzy Osbourne CD's and Tab ] Pantera Bio and Sheetmusic ] Paul Simon CDs and Notes ] Paula Abdul ] Pearl Jam Biography and Pictures ] Pet Shop Boys ] Peter Gabriel Guitar Chords And Tab ] Phil Collins ] Pink ] Pink Floyd Guitar Chords And Sheet Music ] Poco CD's and Info ] Poison Biography and Sheetmusic ] Porter Wagner ] Prince Sheetmusic and Notes ] Pussy Cat Dolls ] Queen CD's and Tablature ] Quiet Riot ] Quincy Jones ] R Kelly ] Red Hot Chilli Peppers Tab and CDs ] R.E.M. ] Rhapsody CD's and Videos ] Richard Cheese CD's and Notes ] Rick James ] Ricky Martin ] Rod Stewart ] The Rolling Stones CD's and Tablature ] Rush Chords And Sheet Music ] Sammy Davis Jr ] Santana CD's and Chords ] Scorpions Guitar Chords And Tablature ] Sex Pistols CD's and Info ] Shakira ] Simple Plan ] Slayer ] Slipknot Tablature and Biography ] Smokey Robinson ] Soul Asylum Notes and CD's ] Spice Girls ] Stevie Ray Vaughan Bio and Sheetmusic ] Stevy Wonder Notes and CDs ] Stone Temple Pilots Notes and Chords ] Stray Cats Sheetmusic and CD's ] Streets Notes and CD's ] Styx Chords And Tab ] Supertramp Notes and Sheetmusic ] System Of A Down ] Ted Nugent CD's and DVDs ] Third Eye Blind bio and Sheetmusic ] Three Days Grace CD's and Chords ] TLC ] Toby Keith Chords ] Tom Petty Chords ] Toni Braxton ] Tony Bennett ] Tool ] Tupac Shakur Bio and Sheetmusic ] Tragically Hip Notes and CD's ] Twisted Sister ] U2 Tablature ] Van Halen Tablature And Chords ] Van Morrison CD's and Info ] Vanessa Williams ] Velvet Revolver Notes and CDs ] Village People ] Weezer CD's and Chords ] White Stripes ] White Zombie ] Whitney Houston ] The Who Sheetmusic and CD's ] Wilco Chords and Tabliture ] Yes Chords and CD's ] Zombies CD's and Sheetmusic ] ZZ Top Chords and Tab ] More Rock Artists ] Country Music CDs ] Country Sheet Music ] Concerts on DVD ] Guitar Lessons On dvd ] Chords And Tab Site Map ] Tablature Explanations ] Instruments For Sale ]


Guitar - Guiter - Guitir - Guitat - Guitare - Gutar - Gitar - Tabliture - Tablature - Tableture - Tabiture - Song Notes - Song Chords - Lyrics - Song Lyrics - Notes - Songs - Biography - Tab - Bio - Pics - Pic's - Pics' - Pictures - Picture's - Artist Info - Information - Free Guitar Tab - Jazz Music - Jazz - Jazz Tab - Jazz Chords - Jazz Notes - Rock Music - Rock - Rock Tab - Rock Chords - Rock Notes - Country Music - Country - Country Tab - Country Chords - Country Notes - Classical Music - Classical - Classical Tab - Classical Chords - Classical Notes - Heavy Metal Music - Heavy Metal - Heavy Metal Tab - Heavy Metal Chords - Heavy Notes - Rock N Roll Music - Rock N Roll - Rock N Roll Tab - Rock N Roll Chords - Rock N Roll Notes

For Rap Music And Hip-Hop Click Here
For Piano Manufactures and Accessories
For Top Ranked Audio Software Click Here


hosted by www.weboshawa.com

chords and tab @ www.chordsandtab.com